On-line: гостей 0. Всего: 0 [подробнее..]
АвторСообщение
SilverMoonShine



Не зарегистрирован
ссылка на сообщение  Отправлено: 21.09.07 11:52. Заголовок: Всем кто начинает играть на гитаре


обязательно научитесь играть песню нирваны can you feel my baSs!!! ее очень просто... учавствует 2 струны всего!!!
море позитива!!!
я когда первый раз ее услышал до сих пор ее играю... хоть я и не умею играть все остальное... но припев этой песни играть нужно всегда!!

Спасибо: 0 
Ответов - 315 , стр: 1 2 3 4 5 6 7 8 All [только новые]


zag
администратор




Сообщение: 803
Откуда: РОССИЯ мать ваша, СПБ
Репутация: 5
ссылка на сообщение  Отправлено: 09.08.08 01:09. Заголовок: Вован пишет: Очень ..


Вован пишет:

 цитата:
Очень хочу спеть под гитару песню "Звезда по имени солнце" но когда пытаюсь играть и петь сбивается бой! И вообще можно спросить какие лучше использовать акорды и какой бой? И пару советов, от опытных гитарисов непомишает



http://zag.forum24.ru/?1-17-0-00000003-000-0-0-1206728141

____________________________________________
myguitar1.narod.ru - сайт для гитаристов
Спасибо: 0 
Профиль
Вован



Не зарегистрирован
ссылка на сообщение  Отправлено: 09.08.08 11:29. Заголовок: Да видел я это видео..


Да видел я это видео сотни раз! но трудно уловит на видео и какие акорды там берут не видно!

Спасибо: 1 
Одинокая





Сообщение: 1
Репутация: 0
ссылка на сообщение  Отправлено: 09.08.08 22:07. Заголовок: Добрый вечер!!! Никт..


Добрый вечер!!! Никто не знает аккордов песни Слота -Две войны??? Очень очень сильно нужно .... Заранее спасибо

Спасибо: 0 
Профиль
}{oTT@быЧ





Сообщение: 44
Откуда: Россия)), Собинка
Репутация: 0
ссылка на сообщение  Отправлено: 11.08.08 16:28. Заголовок: Вован пишет: и каки..


Вован пишет:

 цитата:
и какие акорды там берут не видно!



А зачем тебе видеть аккорды? Ты их и так знаешь, надо только ритм уловить

Спасибо: 0 
Профиль
Вован



Не зарегистрирован
ссылка на сообщение  Отправлено: 12.08.08 16:09. Заголовок: Блин я скоро вознена..


Блин я скоро возненавижу эту песню. Гитара играет одно, пою другое. Трудно играть этот акомпанемент. Я раньше играл на одно слово один удар. Ритм зато был. Но небыло определенного боя. И вроде так не играют. Не играют же?

Спасибо: 0 
Вован



Не зарегистрирован
ссылка на сообщение  Отправлено: 12.08.08 16:18. Заголовок: верне на слог!..


верне на слог!

Спасибо: 0 
zag
администратор




Сообщение: 807
Откуда: РОССИЯ мать ваша, СПБ
Репутация: 5
ссылка на сообщение  Отправлено: 12.08.08 16:23. Заголовок: Вован пишет: Блин я..


Вован пишет:

 цитата:
Блин я скоро возненавижу эту песню. Гитара играет одно, пою другое. Трудно играть этот акомпанемент. Я раньше играл на одно слово один удар. Ритм зато был. Но небыло определенного боя. И вроде так не играют. Не играют же?



по началу такое бывает. нужно набраться терпения и тренироваться.
если играть 6-ой, то каждый аккорд играешь 2 раза, ну и стараешься петь. ритм ногой отбивай или метроном включи

____________________________________________
myguitar1.narod.ru - сайт для гитаристов
Спасибо: 0 
Профиль
Вован



Не зарегистрирован
ссылка на сообщение  Отправлено: 12.08.08 16:27. Заголовок: Бе-лый снег се-..


Бе-лый снег се-рый лёд
вниз-вверх-вниз вниз-вверх вниз Вот пример, как раньше играл непосмотрев видео которое на этом сайте!

Спасибо: 0 
Вован



Не зарегистрирован
ссылка на сообщение  Отправлено: 14.08.08 06:56. Заголовок: zag пишет: по начал..


zag пишет:

 цитата:
по началу такое бывает. нужно набраться терпения и тренироваться.
если играть 6-ой, то каждый аккорд играешь 2 раза, ну и стараешься петь. ритм ногой отбивай или метроном включи

что такое метроном?

Спасибо: 0 
zag
администратор




Сообщение: 814
Откуда: РОССИЯ мать ваша, СПБ
Репутация: 5
ссылка на сообщение  Отправлено: 14.08.08 08:26. Заголовок: Вован пишет: zag пи..


Вован пишет:

 цитата:
zag пишет:

цитата:
по началу такое бывает. нужно набраться терпения и тренироваться.
если играть 6-ой, то каждый аккорд играешь 2 раза, ну и стараешься петь. ритм ногой отбивай или метроном включи


что такое метроном?



метроном - это устройство для отсчета ритма. цифровой метроном можешь скачать здесь http://www.myguitar1.narod.ru/index/soft3.htm

В Guitar Pro, кстати, так же есть метроном

____________________________________________
myguitar1.narod.ru - сайт для гитаристов
Спасибо: 0 
Профиль
MUSIKMAKER





Сообщение: 1
Репутация: 0
ссылка на сообщение  Отправлено: 19.08.08 19:32. Заголовок: PLEASE!!!!! POMOGITE..


PLEASE!!!!! POMOGITE PODSKASHITE BOI NA PESNJU TANZI MINUS GOROD, NA PESNJU SEKTOR GAZA BOMZH
SPASIBO ZARANEE

Спасибо: 0 
Профиль
Tory



Сообщение: 1
Репутация: 0
ссылка на сообщение  Отправлено: 25.08.08 17:39. Заголовок: привет всем,объяснит..


привет всем,объясните плиз,как играть боем,вот аккорды ставить могу,занимаюсь в муз. школе,но там мы играем перебором,и мне таг хочется играть боем,объясните,плизззз

Спасибо: 0 
Профиль
}{oTT@быЧ





Сообщение: 64
Откуда: Россия)), Собинка
Репутация: 0
ссылка на сообщение  Отправлено: 26.08.08 00:20. Заголовок: Вован пишет: Б..


Вован пишет:

 цитата:
Бе-лый снег се-рый лёд
вниз-вверх-вниз вниз-вверх вниз Вот пример, как раньше играл непосмотрев видео которое на этом сайте!



я примерно так играю, как раз слог на аккорд =)
|-Бе-|-лый-|-снег-|-------|--------|--------|-се-|-рый-|-лед-|
|вниз|врех | вниз |вниз(г)|верх |вниз |вниз| врех|вниз |вниз(г) 2хверх

Спасибо: 1 
Профиль
Вован



Не зарегистрирован
ссылка на сообщение  Отправлено: 30.08.08 13:01. Заголовок: Поверь, ничтожество ..


Поверь, ничтожество есть благо в здешнем свете.
К чему глубокие познанья, жажда славы,
Талант и пылкая любовь свободы,
Когда мы их употребить не можем?
Мы, дети севера, как здещние растенья,
Цветём недолго, быстро увядаем...
Как солнце зимнее на сером небосклоне,
Так пасмурна жизнь наша. Так недолго
Её однообразное теченье...
И душно кажется на родине,
И сердцу тяжко, и душа тоскует...
Не зная ни любви, ни дружбы сладкой,
Средь бурь пустых томиться юность наша,
И быстро злобы яд её мрачит,
И нам горька остылой жизни чаша;
И уж ничто души не веселит.

Люди помогите, кто может! Подберите пожалуйста, аккорды к этим стихам.

Спасибо: 0 
Вован



Не зарегистрирован
ссылка на сообщение  Отправлено: 30.08.08 13:15. Заголовок: И скажите в каком бо..


И скажите в каком бое это можно сыграть, пожалуйста. Как говорится мои слова ваша музыка

Спасибо: 0 
zag
администратор




Сообщение: 887
Откуда: РОССИЯ мать ваша, СПБ
Репутация: 5
ссылка на сообщение  Отправлено: 30.08.08 17:13. Заголовок: Вован пишет: привет..


Вован пишет:

 цитата:
привет всем,объясните плиз,как играть боем,вот аккорды ставить могу,занимаюсь в муз. школе,но там мы играем перебором,и мне таг хочется играть боем,объясните,плизззз



все то же самое, только играешь боем. подробнее о том как играть http://zag.forum24.ru/?1-3-0-00000006-000-0-0-1219093381

____________________________________________
play-guitar.ru - сайт для гитаристов
Спасибо: 0 
Профиль
zag
администратор




Сообщение: 888
Откуда: РОССИЯ мать ваша, СПБ
Репутация: 5
ссылка на сообщение  Отправлено: 30.08.08 17:15. Заголовок: Вован пишет: Люди п..


Вован пишет:

 цитата:
Люди помогите, кто может! Подберите пожалуйста, аккорды к этим стихам.



а это существующая песня или надо придумать мелодию???

____________________________________________
play-guitar.ru - сайт для гитаристов
Спасибо: 0 
Профиль
zag
администратор




Сообщение: 889
Откуда: РОССИЯ мать ваша, СПБ
Репутация: 5
ссылка на сообщение  Отправлено: 30.08.08 17:17. Заголовок: Вован пишет: И скаж..


Вован пишет:

 цитата:
И скажите в каком бое это можно сыграть, пожалуйста. Как говорится мои слова ваша музыка



давай продолжим вот в этом разделе http://zag.forum24.ru/?0-19

____________________________________________
play-guitar.ru - сайт для гитаристов
Спасибо: 0 
Профиль
Вован



Не зарегистрирован
ссылка на сообщение  Отправлено: 30.08.08 21:01. Заголовок: Чё то я невник, где ..


Чё то я невник, где продолжим

Спасибо: 0 
zag
администратор




Сообщение: 891
Откуда: РОССИЯ мать ваша, СПБ
Репутация: 5
ссылка на сообщение  Отправлено: 30.08.08 21:46. Заголовок: Вован пишет: Чё то ..


Вован пишет:

 цитата:
Чё то я невник, где продолжим



создай тему под своим именем в разделе http://zag.forum24.ru/?0-19 с предложением придумать музыку на стихи. я так думаю будет правильно

____________________________________________
play-guitar.ru - сайт для гитаристов
Спасибо: 0 
Профиль
Вован



Не зарегистрирован
ссылка на сообщение  Отправлено: 30.08.08 21:57. Заголовок: А асю дашь?..


А асю дашь?

Спасибо: 0 
zag
администратор




Сообщение: 894
Откуда: РОССИЯ мать ваша, СПБ
Репутация: 5
ссылка на сообщение  Отправлено: 30.08.08 22:28. Заголовок: Вован пишет: А асю ..


Вован пишет:

 цитата:
А асю дашь?


адрес внизу каждой страницы

____________________________________________
play-guitar.ru - сайт для гитаристов
Спасибо: 0 
Профиль
ZAX





Сообщение: 70
Откуда: Украина, Краматорск
Репутация: 0
ссылка на сообщение  Отправлено: 03.09.08 21:42. Заголовок: Tory пишет: привет ..


Tory пишет:

 цитата:
привет всем,объясните плиз,как играть боем,вот аккорды ставить могу,занимаюсь в муз. школе,но там мы играем перебором,и мне таг хочется играть боем,объясните,плизззз



Хм...Ну вот на етом форуме даже можеш увидеть!
От видио http://zag.forum24.ru/?1-17-0-00000022-000-0-0-1218660641 очень понятное и четкое.Если с первого раза непоняла - посмотри несколько раз очень внимательно и все будит получатся!

Спасибо: 0 
Профиль
Алена



Сообщение: 1
Репутация: 0
ссылка на сообщение  Отправлено: 03.09.08 22:20. Заголовок: Вован пишет: О..


Вован пишет:

 цитата:
Очень хочу спеть под гитару песню "Звезда по имени солнце" но когда пытаюсь играть и петь сбивается бой! И вообще можно спросить какие лучше использовать акорды и какой бой? И пару советов, от опытных гитарисов непомишает



Вот здесь очень хорошо показано как играть эту песню!!!
http://www.guitar-school.ru/forum/showthread.php?t=44

Спасибо: 0 
Профиль
Вован



Не зарегистрирован
ссылка на сообщение  Отправлено: 21.09.08 14:46. Заголовок: Помогите! Я учу песн..


Помогите! Я учу песни группы Кино. Но вот до меня, не доперает как играть "Мы хотим танцевать" Аккорды там лёгкие и всего их три. Но бой и тем непойму. Помогите пожалуйста!

Спасибо: 0 
Вован



Не зарегистрирован
ссылка на сообщение  Отправлено: 21.09.08 14:48. Заголовок: Извините не тем, а т..


Извините не тем, а темп

Спасибо: 0 
Вован



Не зарегистрирован
ссылка на сообщение  Отправлено: 21.09.08 14:53. Заголовок: Ещё я хотел бы узнат..


Ещё я хотел бы узнать каким боем играть восьмикласницу, Цой как то глушит вроде. А у меня бои с глушением не получаются, непойму как глушить.

Спасибо: 0 
Алена



Сообщение: 2
Репутация: 0
ссылка на сообщение  Отправлено: 26.09.08 12:52. Заголовок: Вован пишет: Ещё я ..


Вован пишет:

 цитата:
Ещё я хотел бы узнать каким боем играть восьмикласницу, Цой как то глушит вроде. А у меня бои с глушением не получаются, непойму как глушить



Играйте: вниз,глушение,вверх,вниз
Точно так же как и звезда по имени солнце

http://www.guitar-school.ru/forum/showthread.php?t=44

Спасибо: 0 
Профиль
Анжелика





Сообщение: 2
Репутация: 0
ссылка на сообщение  Отправлено: 28.09.08 18:28. Заголовок: Подскажите как играт..


Подскажите как играть Extreme - More Than Words? Вроде аккорды все знаю а вот каким способом играть не знаю , раз посоветовали играть типа так:вниз вниз вверх вверх вниз вверх,но че то оно не похоже

Спасибо: 0 
Профиль
zag
администратор




Сообщение: 967
Откуда: РОССИЯ мать ваша, СПБ
Репутация: 5
ссылка на сообщение  Отправлено: 28.09.08 21:01. Заголовок: Анжелика пишет: Под..


Анжелика пишет:

 цитата:
Подскажите как играть Extreme - More Than Words? Вроде аккорды все знаю а вот каким способом играть не знаю , раз посоветовали играть типа так:вниз вниз вверх вверх вниз вверх,но че то оно не похоже

`

вот так попробуй

More Than Words                                  


E E E E E E E E E E E E E Q E
E||-----3-----------3--------|-----3--------3--3-------|
B||-----3-----------3--------|-----3-----------3----1--|
G||--------x-----------x-----|--------x----------------|
D||--------x-----------x-----|--------x----------------|
A||-----------2--L--------3--|--L--------3--3--3----0--|
E||--3-----------------------|-------------------------|


E E E E E Q E E E E E E E E E E E E E E E E E
-----0--------3----------|-----0-----2-----3--------|-----3-----------3--------|
--L--1-----------1----1--|--L--1-----3--------------|-----3-----------3--------|
--------x----------------|--------x-----------x-----|--------x-----------x-----|
--------x----------------|--------x-----0-----x-----|--------x-----------x-----|
--L--------0--0--0----3--|--L-----------------------|-----------2--L--------3--|
-------------------------|-----------------------3--|--L-----------------------|


E E E E E Q E E E E E E Q E E E E E E E E E
-----3--------3--3-------|-----0--------3----------|-----0-----2-----3-----3--|
-----3-----------3----1--|--L--1-----------1----1--|--L--1-----3-----------3--|
--------x----------------|--------x----------------|--------x-----------x-----|
--------x----------------|--------x----------------|--------x-----------x-----|
--L--------3--3--3----0--|--L--------0--0--0----3--|--L-----------0-----------|
-------------------------|-------------------------|-----------------------3--|


E E E E E E E E E E E E E Q E
|------3-----------3--------|-----3--------3--3-------|
|------3-----------3--------|-----3-----------3----1--|
|*--------x-----------x-----|--------x----------------|
|*--------x-----------x-----|--------x----------------|
|------------2--L--------3--|--L--------3--3--3----0--|
|---3-----------------------|-------------------------|


E E E E E Q E E E E E E E E E E E E E E E E E
-----0--------3----------|-----0-----2-----3--------|-----3-----------3--------|
--L--1-----------1----1--|--L--1-----3--------------|-----3-----------3--------|
--------x----------------|--------x-----------x-----|--------x-----------x-----|
--------x----------------|--------x-----0-----x-----|--------x-----------x-----|
--L--------0--0--0----3--|--L-----------------------|-----------2--L--------3--|
-------------------------|-----------------------3--|--L-----------------------|


E E E E E Q E E E E E E Q E E E E E E E E E
-----3--------3--3-------|-----0--------3----------|-----0-----2-----3-----0--|
-----3-----------3----1--|--L--1-----------1----1--|--L--1-----3--------------|
--------x----------------|--------x----------------|--------x-----------x-----|
--------x----------------|--------x----------------|--------x-----0-----x-----|
--L--------3--3--3----0--|--L--------0--0--0----3--|--L-----------------------|
-------------------------|-------------------------|-----------------------0--|


E E E E E E E E E E Q E Q E Q E E E E E E
--L--0--------------------|-------------3--0-------|--2-------2--L--2--------|
-----0-----0--L--0--------|-----1-------1--1-------|--3-------3--L--3--------|
--------x--0--L--0--x-----|-----0--x---------------|-------x-----------x-----|
--------x-----------x-----|--------x---------------|--0----x--0--L--0--x-----|
-----------------------0--|--0----------0--0----0--|-------------------------|
--L--------0--L--0--------|------------------------|----------------------3--|


E E E E E E E E E E E E E E E E
-----3--------------------|-----0--------------------|
-----3-----3-----3-----0--|--L--0-----0--L--0-----1--|
--------x--2-----2--x--0--|--L-----x--0--L--0--x--0--|
--------x-----------------|--------x-----------x-----|
--------------------------|-----------2--L--2-----0--|
--L--------2-----2-----0--|--L-----------------------|


E E E E E E E E Q E E E E E E E Q E E E E E
--------------3--3--------|----------0--L--2-----1--|-----1----1--L--1-----0--|
--L--1--------1--1--------|----------3--L--3--------|-----0----0--L--0-----1--|
--L--0--x-----------x-----|-------x-----------x-----|--x----------------x-----|
--------x-----------x-----|--0----x--0--L-----x-----|--x----------------x-----|
--L--0-----0--0--0-----0--|-------------------------|----------2--L--2--x--3--|
--------------------------|----------------------3--|-----0-------------------|


Q E E E E E E E E Q E Q E E E E E E E E E
--L----------0--0--------|------------------------|-----3--------3--3-----3--|
--L----------1--1-----4--|--L--4-------4--4----2--|--L--3--------3--3-----3--|
-------x-----------x--0--|--L--0--x----0--0----0--|--L-----------------------|
-------x-----------x-----|--------x---------------|--------x-----------------|
--L-------3--3--3-----3--|--L--3-------3--3-------|--------------------------|
-------------------------|---------------------3--|--L--------3--3--3--2--0--|


E E E E E E Q W W
-----3-----3-----3--L----|-------------------|-------------------|
-----3-----3-----3--L----|-------------------|-------------------|
--------x-----x----------|-------------------|-------------------|
-----------2-------------|-------------------|-------------------|
-----2-----------2--L----|-------------------|-------------------|
--0----------------------|-------------------|-------------------|


E E E E E E E E E E E E E E E E Q E E E E E E
-----3-----------3--------|-----3-----------3--------|--2----0-----0--2--------|
-----3-----------3--------|-----3-----------3--------|--3----------3--------0--|
--------x-----------x-----|--------------------------|-------------------------|
--------------------------|--------x-----------x-----|----------x--------x-----|
-----------2--L-----------|-----------2--L-----------|-------------------------|
--3--------------------3--|--L--------------------0--|--2----------2--------0--|


E E E E E E E E E E Q E Q E E E E E E E E E
-----------------2--------|------------------------|--------------------------|
-----------------3-----1--|--L--1-------1--1----1--|--L--1-----1-----1-----1--|
-----------------------0--|--L--0--x----0--0----0--|--L--0--x--0-----0--x--0--|
--------x-----4-----x--2--|--L--2------------------|-----------------------2--|
-----2-----2-----------3--|--L----------3--3----3--|--L--3-----3-----3-----0--|
--------------------------|------------------------|--------------------------|


E E E E E Q E E E E E E E E E E E E E E E E E
-------------------------|-----2-----------2--------|-----3-----------3--------|
--L--1----------------3--|--L--3-----------3--------|-----3-----------3--------|
--L--0----------------2--|--L--------2--------------|--------------------------|
--L-----2-------------0--|--L-----x--0--------------|--------------------------|
--L-----0--0--0--0-------|--------------------x-----|--------x--2--L-----x-----|
-------------------------|-----------------------3--|--L--------------------3--|


E E E E E E Q Q E E E E E E E E E E E E E E
-----3-----------3-------|--2----0-----0--2--------|-----------------2--------|
-----3-----------3-------|--3----------3--------0--|-----------------3-----1--|
-------------------------|-------------------------|-----------------------0--|
--------------------x----|-------------------x-----|--------x-----------x-----|
--------x--2--L----------|-------------------------|-----2-----2--4--------3--|
--L----------------------|--2----------2--------0--|--------------------------|


E E Q E Q E E E E E E Q E E E E E E E Q
------------------------|-------------------------|--------------3----------|
--L--1-------1--1----1--|--L--1-----1-----1----1--|--L--1--------1--1-------|
--L--0-------0--0----0--|--L--0-----0-----0----0--|--L--0--x-----0--0-------|
--------x---------------|--------x----------------|-------------------------|
--L--3-------3--3----3--|--L--3-----3-----2----0--|--L--------0--0--0-------|
------------------------|-------------------------|-------------------------|


W E S S Q Q Q E E E E E E E E
--2----------------|--x--x------------------|-----3-----------3--------|
--1----------------|--x--x------------------|-----3-----------3--------|
--2----------------|--x--x------------------|--------------------------|
--0----------------|--x--x------------------|--------x-----------x-----|
-------------------|--x--x------------------|-----------2--L--------3--|
-------------------|--x--x------------------|--3-----------------------|


E E E E E Q E E E E E E Q E E E E E E E E E
-----3--------3--3-------|-----0--------3----------|-----0-----2-----3--------|
-----3-----------3----1--|--L--1-----------1----1--|--L--1-----3--------------|
-------------------------|-------------------------|--------------------------|
--------x----------------|--------x----------------|--------x-----0-----x-----|
--L--------3--3--3----0--|--L--------0--0--0----3--|--L-----------------------|
-------------------------|-------------------------|-----------------------3--|


E E E E E E E E E E E E E Q E E E E E E Q E
-----3-----------3--------|-----3--------3--3-------|-----0--------3----------|
-----3-----------3--------|-----3-----------3----1--|--L--1-----------1----1--|
--------------------------|-------------------------|-------------------------|
--------x-----------------|--------x----------------|--------x----------------|
-----------2--L-----x--3--|--L--------3--3--3----0--|--L--------0--0--0----3--|
--L-----------------------|-------------------------|-------------------------|


E E E E E E E E W E E E E E E E E
-----0-----2-----3-----3---||--2----------------||---L--3-----------3--------|
--L--1-----3-----------3---||--1----------------||---L--3-----------3--------|
--------------------------*||--2----------------||*--L-----------------------|
--------x-----------x-----*||--0----------------||*--L-----x-----------x-----|
--L-----------0------------||-------------------||------------2--L--------3--|
-----------------------3---||-------------------||---------------------------|


E E E E E Q E E E E E E Q E
-----3--------3--3-------|-----0--------3----------|
-----3-----------3----1--|--L--1-----------1----1--|
--------x----------------|-------------------------|
-------------------------|--------x----------------|
--L--------3--3--3----0--|--L--------0--0--0----3--|
-------------------------|-------------------------|


E E E E E E E E 4x W E E E E E E E E
-----0-----2-----3-----3---||--L----------------|--------------3-----------|
--L--1-----3-----------3---||--L----------------|--------3--------3--------|
--------------------x-----*||-------------------|-----0-----0--------0-----|
--------x-----------------*||-------------------|--------------------------|
--L-----------0------------||-------------------|--------------------------|
-----------------------3---||--L----------------|--3--------------------3--|


E E E E E E E E E E E E E E E E
--------------0-----------|--------------0-----------|
--------3--------3--------|--------3--------3--------|
-----2-----2--------2-----|-----2-----2--------2-----|
--------------------------|--------------------------|
--------------------------|--------------------------|
--2--------------------2--|--1--------------------1--|


E E E E E E E E E E E E E E E E
-----------------0--------|--------------0-----------|
--------------0-----0-----|-----------1-----1--------|
-----------2-----------2--|--------0-----------0-----|
--------2-----------------|-----2-----------------2--|
-----2--------------------|--0-----------------------|
--0-----------------------|--------------------------|


|-3-| |-3-| |-3-|
E S S S S S S S S S T T T T T T T T T T T T T T T T
-----2-3-5-17-5-3-2-3-0-15-5-3-2-3-17-5-3-2-3-5-15-5-3-2-3-|
-----------------------------------------------------------|
-----------------------------------------------------------|
-----------------------------------------------------------|
--0--------------------------------------------------------|
-----------------------------------------------------------|


T T T T T T T T T T T T T T T T T T T T T T T T T T T T T T T T
--5-14-5-3-2-3-5-15-5-3-2-3-5-14-5-3-2-3-5-12-5-3-2-3-5-8-5-3-2-3-5-7-|
----------------------------------------------------------------------|
----------------------------------------------------------------------|
----------------------------------------------------------------------|
----------------------------------------------------------------------|
----------------------------------------------------------------------|


T T T T T T T T T T T T T T T T T T T T T T T Q T W
--5-3-2-3-5-7-5-2-0-2-0--------------------------------|-------------------|
------------------------3-0-3-0------------------------|-------------------|
--------------------------------2-0--------------------|-------------------|
------------------------------------0-2-0--------------|-------------------|
------------------------------------------2-0----------|-------------------|
----------------------------------------------2-2----L-|-------------------|


E E E E E E E E E E E E E E E E
--------------3-----------|--------3-----------3-----|
-----------3-----3--------|--3--------3--3--------3--|
--------0-----------0-----|-----0--------------------|
-----0--------------------|-----------------0--------|
-----------------------2--|--3-----------2-----------|
--3-----------------------|--------------------------|


|-3-|
E E E E E E E E E S S S H. W
--------3-----------------|--0S--3-5-3-L------------|--3----------------||
--3--------3-----------1--|-------------------------|--3----------------||
--------------------0-----|-------------------------|--0----------------||
-----0-----------2--------|-------------------------|--0----------------||
--1-----------0-----------|-------------------------|-------------------||
--------------------------|-------------------------|--3----------------|


____________________________________________
play-guitar.ru - сайт для гитаристов
Спасибо: 1 
Профиль
Анжелика





Сообщение: 4
Откуда: Украина, Винница
Репутация: 0
ссылка на сообщение  Отправлено: 30.09.08 13:17. Заголовок: Вот появился еще воп..


Вот появился еще вопросик , че означают --L--, S, и некие буквочки над табами T T T T T T T T T T T T T T T T T T T T T T T Q T W

Спасибо: 0 
Профиль
Анжелика





Сообщение: 5
Откуда: Украина, Винница
Репутация: 0
ссылка на сообщение  Отправлено: 30.09.08 13:19. Заголовок: Извените забыла побл..


Извените забыла поблагодатить за табы, Огромное спасибо)))))

Спасибо: 0 
Профиль
Анжелика





Сообщение: 6
Откуда: Украина, Винница
Репутация: 0
ссылка на сообщение  Отправлено: 30.09.08 13:48. Заголовок: А я с цыганочки начи..


А я с цыганочки начинала. Зато радости было от первых аккордов

Спасибо: 0 
Профиль
Анжелика





Сообщение: 7
Откуда: Украина, Винница
Репутация: 0
ссылка на сообщение  Отправлено: 30.09.08 14:13. Заголовок: SilverMoonShine пише..


SilverMoonShine пишет:

 цитата:
обязательно научитесь играть песню нирваны can you feel my baSs!!! ее очень просто... учавствует 2 струны всего!!!
море позитива!!!
я когда первый раз ее услышал до сих пор ее играю... хоть я и не умею играть все остальное... но припев этой песни играть нужно всегда!!


А мне не нравится ета песня((((((

Спасибо: 0 
Профиль
fialka



Не зарегистрирован
ссылка на сообщение  Отправлено: 01.11.08 10:36. Заголовок: а как кузнечика игра..


а как кузнечика играть только можна на словах!!!?

Спасибо: 0 
zag
администратор




Сообщение: 1017
Откуда: РОССИЯ мать ваша, СПБ
Репутация: 5
ссылка на сообщение  Отправлено: 01.11.08 23:53. Заголовок: fialka пишет: а как..


fialka пишет:

 цитата:
а как кузнечика играть только можна на словах!!!?



можно на первой струне
5 0 5 0 5 4 4 4 0 4 0 4 5 5

цифры номера ладов

____________________________________________
play-guitar.ru - сайт для гитаристов
Спасибо: 0 
Профиль
Степан



Сообщение: 1
Репутация: 0
ссылка на сообщение  Отправлено: 29.11.08 11:08. Заголовок: скиньте пожалуйсто с..


скиньте пожалуйсто ссылку на простую таблицу акордов

Спасибо: 0 
Профиль
zag
администратор




Сообщение: 1060
Откуда: РОССИЯ мать ваша, СПБ
Репутация: 5
ссылка на сообщение  Отправлено: 29.11.08 11:15. Заголовок: Степан пишет: скинь..


Степан пишет:

 цитата:
скиньте пожалуйсто ссылку на простую таблицу акордов



такая подойдет?
http://www.play-guitar.ru/index/guitar_chords.shtml

____________________________________________
play-guitar.ru - сайт для гитаристов
Спасибо: 0 
Профиль
ВАСЯ



Не зарегистрирован
ссылка на сообщение  Отправлено: 19.12.08 02:46. Заголовок: парни пожалуйста ски..


парни пожалуйста скинте мне какой нить сайт чтоб я смог выучить аекорды везде искал ни где найти не могу

Спасибо: 0 
Vallery





Сообщение: 122
Настроение: Даже профессиональные гитаристы когда-то были новичками!
Откуда: Казахстан, п.Боровской
Репутация: 1
ссылка на сообщение  Отправлено: 21.12.08 20:31. Заголовок: ВАСЯ пишет: парни п..


ВАСЯ пишет:

 цитата:
парни пожалуйста скинте мне какой нить сайт чтоб я смог выучить аекорды везде искал ни где найти не могу


Эх, ВАСЯ, ВАСЯ...
Ты ведь и находишься на этом сайте: www.play-guitar.ru

Еще лучше скачай (здесь же) программу Guitar Pro, там есть все, что тебе надо.

Спасибо: 1 
Профиль
Ответов - 315 , стр: 1 2 3 4 5 6 7 8 All [только новые]
Тему читают:
- участник сейчас на форуме
- участник вне форума
Все даты в формате GMT  3 час. Хитов сегодня: 30
Права: смайлы да, картинки да, шрифты да, голосования нет
аватары да, автозамена ссылок вкл, премодерация откл, правка нет