On-line: гостей 0. Всего: 0 [подробнее..]
АвторСообщение





Сообщение: 1
Репутация: 0
ссылка на сообщение  Отправлено: 21.07.08 19:21. Заголовок: табы на акустическую песню АРИИ УЛИЦА РОЗ


Народ, ищу табы на эту песню.оч надо плз
могу дать саму песню

Спасибо: 0 
ПрофильЦитата Ответить
Ответов - 5 [только новые]


администратор




Сообщение: 791
Откуда: РОССИЯ мать ваша, СПБ
Репутация: 4
ссылка на сообщение  Отправлено: 21.07.08 20:27. Заголовок: все что есть по арии..


все что есть по арии http://www.myguitar1.narod.ru/gp/russian/aria.zip

акустическую версию не слышал

____________________________________________
myguitar1.narod.ru - сайт для гитаристов
Спасибо: 0 
ПрофильЦитата Ответить





Сообщение: 2
Репутация: 0
ссылка на сообщение  Отправлено: 22.07.08 10:20. Заголовок: вот эта песня;)))


я сам офигел когда услышал)).
вот держи саму песню
Улица Роз

Спасибо: 0 
ПрофильЦитата Ответить
администратор




Сообщение: 794
Откуда: РОССИЯ мать ваша, СПБ
Репутация: 4
ссылка на сообщение  Отправлено: 22.07.08 18:51. Заголовок: прикольно :sm15: дум..


прикольно думаю так: аккорды известны, бой тоже подобрать можно. вот тока там проигрыш есть небольшой, но вроде тоже не сложный. найдуться умельцы, изобразят сие в ГТП. Пока инфы никакой про табы

____________________________________________
myguitar1.narod.ru - сайт для гитаристов
Спасибо: 0 
ПрофильЦитата Ответить





Сообщение: 4
Откуда: Ukraine
Репутация: 0
ссылка на сообщение  Отправлено: 22.07.08 19:51. Заголовок: это из альбома АВАРИЯ


это из альбома АВАРИЯ)
я б хотел по табам))по аккордам мне кажется менее красивее...(мое мнение) )

Спасибо: 0 
ПрофильЦитата Ответить



Сообщение: 321
Откуда: россия страна матушка, Ефремов
Репутация: 1
ссылка на сообщение  Отправлено: 09.01.11 12:45. Заголовок: Улица роз (акустичес..


Улица роз (акустическая версия)
гитара строится в Eb (Eb Hb Gb Db Ab Eb) (или же все аккорды на пол-тона ниже)

вступление (несколько раз):
v ^ v ^ v ^ v ^ v ^
e|-1-1---1-1-1-1---1-1-1-1---
h|-3-3---3-3-3-3---3-3-3-3---
g|-2-2---2-2-3-3---3-3-2-2---
d|-0-0---0-0-3-3---3-3-0-0---
a|-----------1-1---1-1-------
E|---------------------------

(v - удар вниз, ^ - вверх)

Dm Hb Dm Hb
Жанна из тех королев
Dm Hb G A
Что любят роскошь и ночь
Dm Hb Dm Hb
Только царить на земле
Dm Hb G A
Ей долго не суждено

Hb C F C Dm
Ну а пока как богиню на руках
Gm A
Носят Жанну, Жанну

Все началось не со зла
Все началось как игра, но
Лестницу в небо сожгла
Плата за стыд твой и страх
Ты и они - я порвал бы эту нить
Слышишь Жанна, Жанна


Hb F fill 1
Сводит с ума
C Dm fill 2
Улица роз
Hb F fill 1
Спрячь свой обман
C Dm fill 2
Улица слез
Hb A Hb C Hb A
Я люблю и ненавижу тебя-я-я о-о-о
У королевы нет сил. Трудно пойти вновь на риск
И она разбивает часы, чтобы продлить себе жизнь.
Жить, ведь пока, как богиню на руках носят Жанну, Жанну.

Сводит с ума улица роз.
Спрячь свой обман, улица слез.
Я люблю и ненавижу тебя!


Грязь под ногами бродяг чище чем фальш сладких снов.
Я подаю тебе знак бросить свое ремесло.
Брось и уйди, пусть растает словно дым облик Жанны, Жанны.

припев:

У королевы нет сил. Трудно пойти вновь на риск
И она разбивает часы, чтобы продлить себе жизнь.
Жить, ведь пока, как богиню на руках носят Жанну, Жанну.

припев:


fill 1:
e|-5-5-5-3-3-3-1-1-1-1-0-0---
h|---------------------------
g|---------------------------
d|---------------------------
a|---------------------------
E|---------------------------

fill 2:
e|-----------------0-1-0-1-3-5---
h|-3----3----3-2-3---------------
g|----2----2---------------------
d|-------------------------------
a|-------------------------------
E|-------------------------------

проигрыш вступления

Соло после второго припева:

e|----------------5/8h10-13-10-15\12-------------
h|-/6---8-5---8-6--------------------10------9---
g|--------------------------------------10\7-----
d|-----------------------------------------------
a|-----------------------------------------------
E|-----------------------------------------------


e|---------5--------5-6-5-------5---
h|---5-6-8---8-6---5------8-6-8-----
g|--7-------------6-----------------
d|-7-------------7------------------
a|--------------------------------------
E|--------------------------------------


e|---5-------5---------------5---------------
h|-----8-------6-----8-5----6--8-6-5-6-5-----
g|-7-------7-------7-------7-------------7---
d|-------------------------------------------
a|-------------------------------------------
E|-------------------------------------------

e|------------------------------
h|------------------------------
g|-2-3-2h3p2p0------------------
d|-------------3-2-0------------
a|-------------------4-1-0h1-0--
E|------------------------------

e|-----------------------5-6-8-10-12-13-12h13p12\10------------
h|-----------------5-6-8----------------------------10-8-6\3---
g|-------------0-2---------------------------------------------
d|-------0-2-3-------------------------------------------------
a|-0-1-3-------------------------------------------------------
E|-------------------------------------------------------------


e|----------------------------------------------------------------------
h|-/3---3---5---5---6---6---8---8---10---10---8---8---6---6---5---5/15--
g|----3---3---3---3---7---7---9---9----9----9---9---9---7---7---6-------
d|----------------------------------------------------------------------
a|----------------------------------------------------------------------
E|----------------------------------------------------------------------

Просьбы к участникам форума:

1. В названии темы прошу писать, что конкретно нужно. Темы "помогите плиззз" и "срочно надо" не катят. Название темы должно отображать ее смысл. Это относится ко всем разделам форума.

2. Перед тем, как что-то спросить или создать новую тему, поройтесь в форуме, может Вы не один такой и уже кто-то спрашивал о такой же песне или создавал такую же тему. Если совсем лень искать вручную, воспользуйтесь поиском (наверху страницы под банером). Уважайте наш труд, не захламляйте форум.
Спасибо: 0 
ПрофильЦитата Ответить
Ответ:
1 2 3 4 5 6 7 8 9
большой шрифт малый шрифт надстрочный подстрочный заголовок большой заголовок видео с youtube.com картинка из интернета картинка с компьютера ссылка файл с компьютера русская клавиатура транслитератор  цитата  кавычки моноширинный шрифт моноширинный шрифт горизонтальная линия отступ точка LI бегущая строка оффтопик свернутый текст

показывать это сообщение только модераторам
не делать ссылки активными
Имя, пароль:      зарегистрироваться    
Тему читают:
- участник сейчас на форуме
- участник вне форума
Все даты в формате GMT  3 час. Хитов сегодня: 9
Права: смайлы да, картинки да, шрифты да, голосования нет
аватары да, автозамена ссылок вкл, премодерация откл, правка нет